ISO-10303-21;
HEADER;
FILE_DESCRIPTION (( 'STEP AP214' ),
    '1' );
FILE_NAME ('am-4278 Frame - Vertical.STEP',
    '2020-05-08T20:27:15',
    ( '' ),
    ( '' ),
    'SwSTEP 2.0',
    'SolidWorks 2019',
    '' );
FILE_SCHEMA (( 'AUTOMOTIVE_DESIGN' ));
ENDSEC;

DATA;
#1 = CLOSED_SHELL ( 'NONE', ( #16, #87, #7, #158, #215, #206 ) ) ;
#2 = DIMENSIONAL_EXPONENTS ( 1.000000000000000000, 0.0000000000000000000, 0.0000000000000000000, 0.0000000000000000000, 0.0000000000000000000, 0.0000000000000000000, 0.0000000000000000000 ) ;
#3 = EDGE_CURVE ( 'NONE', #169, #191, #220, .T. ) ;
#4 = CARTESIAN_POINT ( 'NONE',  ( 0.0000000000000000000, -18.62500000000000000, -0.4249999999999999889 ) ) ;
#5 = VERTEX_POINT ( 'NONE', #218 ) ;
#6 = PRODUCT_DEFINITION ( 'UNKNOWN', '', #176, #185 ) ;
#7 = ADVANCED_FACE ( 'NONE', ( #210, #217 ), #170, .T. ) ;
#8 = AXIS2_PLACEMENT_3D ( 'NONE', #97, #99, #132 ) ;
#9 = ADVANCED_BREP_SHAPE_REPRESENTATION ( 'am-4278 Frame - Vertical', ( #163, #21 ), #180 ) ;
#10 = STYLED_ITEM ( 'NONE', ( #197 ), #163 ) ;
#11 = EDGE_CURVE ( 'NONE', #5, #57, #81, .T. ) ;
#12 = CARTESIAN_POINT ( 'NONE',  ( 6.429395695523603660E-17, -18.62500000000000000, 0.5250000000000000222 ) ) ;
#13 = EDGE_CURVE ( 'NONE', #33, #184, #194, .T. ) ;
#14 = COLOUR_RGB ( '',0.2980392156862745057, 0.2980392156862745057, 0.2980392156862745057 ) ;
#15 = PRESENTATION_LAYER_ASSIGNMENT (  '', '', ( #202 ) ) ;
#16 = ADVANCED_FACE ( 'NONE', ( #55 ), #60, .F. ) ;
#17 = AXIS2_PLACEMENT_3D ( 'NONE', #98, #213, #101 ) ;
#18 = CARTESIAN_POINT ( 'NONE',  ( 0.0000000000000000000, 18.62500000000000000, 0.0000000000000000000 ) ) ;
#19 = APPLICATION_CONTEXT ( 'automotive_design' ) ;
#20 = PRODUCT_RELATED_PRODUCT_CATEGORY ( 'part', '', ( #120 ) ) ;
#21 = AXIS2_PLACEMENT_3D ( 'NONE', #146, #147, #148 ) ;
#22 = EDGE_CURVE ( 'NONE', #169, #184, #107, .T. ) ;
#23 = FACE_OUTER_BOUND ( 'NONE', #62, .T. ) ;
#24 = EDGE_CURVE ( 'NONE', #34, #5, #188, .T. ) ;
#25 = UNCERTAINTY_MEASURE_WITH_UNIT (LENGTH_MEASURE( 1.000000000000000082E-05 ), #116, 'distance_accuracy_value', 'NONE');
#26 = DIRECTION ( 'NONE',  ( -0.0000000000000000000, -1.000000000000000000, -0.0000000000000000000 ) ) ;
#27 = AXIS2_PLACEMENT_3D ( 'NONE', #105, #112, #113 ) ;
#28 = AXIS2_PLACEMENT_3D ( 'NONE', #61, #114, #66 ) ;
#29 = CIRCLE ( 'NONE', #164, 0.5250000000000000222 ) ;
#30 =( LENGTH_UNIT ( ) NAMED_UNIT ( * ) SI_UNIT ( $, .METRE. ) );
#31 = AXIS2_PLACEMENT_3D ( 'NONE', #53, #54, #71 ) ;
#32 = CARTESIAN_POINT ( 'NONE',  ( 5.204748896376250699E-17, 18.62500000000000000, 0.4249999999999999889 ) ) ;
#33 = VERTEX_POINT ( 'NONE', #4 ) ;
#34 = VERTEX_POINT ( 'NONE', #201 ) ;
#35 = EDGE_LOOP ( 'NONE', ( #48, #49 ) ) ;
#36 = ORIENTED_EDGE ( 'NONE', *, *, #13, .F. ) ;
#37 = ORIENTED_EDGE ( 'NONE', *, *, #22, .T. ) ;
#38 = ORIENTED_EDGE ( 'NONE', *, *, #50, .T. ) ;
#39 = ORIENTED_EDGE ( 'NONE', *, *, #70, .F. ) ;
#40 = ORIENTED_EDGE ( 'NONE', *, *, #24, .F. ) ;
#41 = ORIENTED_EDGE ( 'NONE', *, *, #123, .T. ) ;
#42 = ORIENTED_EDGE ( 'NONE', *, *, #222, .T. ) ;
#43 = ORIENTED_EDGE ( 'NONE', *, *, #11, .F. ) ;
#44 = ORIENTED_EDGE ( 'NONE', *, *, #117, .T. ) ;
#45 = ORIENTED_EDGE ( 'NONE', *, *, #24, .T. ) ;
#46 = ORIENTED_EDGE ( 'NONE', *, *, #50, .F. ) ;
#47 = ORIENTED_EDGE ( 'NONE', *, *, #3, .F. ) ;
#48 = ORIENTED_EDGE ( 'NONE', *, *, #166, .F. ) ;
#49 = ORIENTED_EDGE ( 'NONE', *, *, #222, .F. ) ;
#50 = EDGE_CURVE ( 'NONE', #191, #169, #171, .T. ) ;
#51 = ORIENTED_EDGE ( 'NONE', *, *, #13, .T. ) ;
#52 = ORIENTED_EDGE ( 'NONE', *, *, #117, .F. ) ;
#53 = CARTESIAN_POINT ( 'NONE',  ( 0.0000000000000000000, 18.62500000000000000, 0.0000000000000000000 ) ) ;
#54 = DIRECTION ( 'NONE',  ( -0.0000000000000000000, -1.000000000000000000, -0.0000000000000000000 ) ) ;
#55 = FACE_OUTER_BOUND ( 'NONE', #167, .T. ) ;
#56 = DIRECTION ( 'NONE',  ( -0.0000000000000000000, -1.000000000000000000, -0.0000000000000000000 ) ) ;
#57 = VERTEX_POINT ( 'NONE', #94 ) ;
#58 = CARTESIAN_POINT ( 'NONE',  ( 0.0000000000000000000, 18.62500000000000000, 0.0000000000000000000 ) ) ;
#59 = ORIENTED_EDGE ( 'NONE', *, *, #11, .T. ) ;
#60 = CYLINDRICAL_SURFACE ( 'NONE', #31, 0.4249999999999999889 ) ;
#61 = CARTESIAN_POINT ( 'NONE',  ( 0.0000000000000000000, 18.62500000000000000, 0.0000000000000000000 ) ) ;
#62 = EDGE_LOOP ( 'NONE', ( #40, #41, #42, #43 ) ) ;
#63 = EDGE_LOOP ( 'NONE', ( #44, #45 ) ) ;
#64 = EDGE_LOOP ( 'NONE', ( #51, #91 ) ) ;
#65 = CARTESIAN_POINT ( 'NONE',  ( 0.0000000000000000000, -18.62500000000000000, 0.0000000000000000000 ) ) ;
#66 = DIRECTION ( 'NONE',  ( 0.0000000000000000000, 0.0000000000000000000, 1.000000000000000000 ) ) ;
#67 = DIRECTION ( 'NONE',  ( 0.0000000000000000000, 1.000000000000000000, 0.0000000000000000000 ) ) ;
#68 = VERTEX_POINT ( 'NONE', #12 ) ;
#69 = LENGTH_MEASURE_WITH_UNIT ( LENGTH_MEASURE( 0.02539999999999999897 ), #30 );
#70 = EDGE_CURVE ( 'NONE', #191, #33, #192, .T. ) ;
#71 = DIRECTION ( 'NONE',  ( 0.0000000000000000000, 0.0000000000000000000, -1.000000000000000000 ) ) ;
#72 = CARTESIAN_POINT ( 'NONE',  ( 0.0000000000000000000, 18.62500000000000000, 0.0000000000000000000 ) ) ;
#73 =( CONVERSION_BASED_UNIT ( 'INCH', #69 ) LENGTH_UNIT ( ) NAMED_UNIT ( #186 ) );
#74 = ORIENTED_EDGE ( 'NONE', *, *, #22, .F. ) ;
#75 = EDGE_LOOP ( 'NONE', ( #219, #52, #59, #182 ) ) ;
#76 = DIRECTION ( 'NONE',  ( 0.0000000000000000000, 1.000000000000000000, 0.0000000000000000000 ) ) ;
#77 = VECTOR ( 'NONE', #214, 39.37007874015748143 ) ;
#78 = CARTESIAN_POINT ( 'NONE',  ( 5.204748896376250699E-17, 18.62500000000000000, 0.4249999999999999889 ) ) ;
#79 = AXIS2_PLACEMENT_3D ( 'NONE', #204, #89, #177 ) ;
#80 = CARTESIAN_POINT ( 'NONE',  ( 0.0000000000000000000, 18.62500000000000000, -0.5250000000000000222 ) ) ;
#81 = LINE ( 'NONE', #80, #178 ) ;
#82 = CARTESIAN_POINT ( 'NONE',  ( 5.204748896376250699E-17, -18.62500000000000000, 0.4249999999999999889 ) ) ;
#83 = CARTESIAN_POINT ( 'NONE',  ( 0.0000000000000000000, 18.62500000000000000, -0.4249999999999999889 ) ) ;
#84 = FACE_OUTER_BOUND ( 'NONE', #156, .T. ) ;
#85 = CARTESIAN_POINT ( 'NONE',  ( 0.0000000000000000000, 18.62500000000000000, -0.4249999999999999889 ) ) ;
#86 = ORIENTED_EDGE ( 'NONE', *, *, #70, .T. ) ;
#87 = ADVANCED_FACE ( 'NONE', ( #23 ), #205, .T. ) ;
#88 = AXIS2_PLACEMENT_3D ( 'NONE', #106, #111, #124 ) ;
#89 = DIRECTION ( 'NONE',  ( 0.0000000000000000000, 1.000000000000000000, 0.0000000000000000000 ) ) ;
#90 = DIRECTION ( 'NONE',  ( 0.0000000000000000000, 0.0000000000000000000, 1.000000000000000000 ) ) ;
#91 = ORIENTED_EDGE ( 'NONE', *, *, #212, .T. ) ;
#92 = CARTESIAN_POINT ( 'NONE',  ( 0.0000000000000000000, 18.62500000000000000, 0.0000000000000000000 ) ) ;
#93 = ORIENTED_EDGE ( 'NONE', *, *, #3, .T. ) ;
#94 = CARTESIAN_POINT ( 'NONE',  ( 0.0000000000000000000, -18.62500000000000000, -0.5250000000000000222 ) ) ;
#95 = DIRECTION ( 'NONE',  ( -0.0000000000000000000, -1.000000000000000000, -0.0000000000000000000 ) ) ;
#96 = DIRECTION ( 'NONE',  ( 0.0000000000000000000, 0.0000000000000000000, -1.000000000000000000 ) ) ;
#97 = CARTESIAN_POINT ( 'NONE',  ( 0.0000000000000000000, -18.62500000000000000, 0.0000000000000000000 ) ) ;
#98 = CARTESIAN_POINT ( 'NONE',  ( 0.0000000000000000000, 18.62500000000000000, 0.0000000000000000000 ) ) ;
#99 = DIRECTION ( 'NONE',  ( 0.0000000000000000000, 1.000000000000000000, 0.0000000000000000000 ) ) ;
#100 = DIRECTION ( 'NONE',  ( 0.0000000000000000000, 0.0000000000000000000, -1.000000000000000000 ) ) ;
#101 = DIRECTION ( 'NONE',  ( 0.0000000000000000000, 0.0000000000000000000, 1.000000000000000000 ) ) ;
#102 = AXIS2_PLACEMENT_3D ( 'NONE', #72, #76, #193 ) ;
#103 = FACE_OUTER_BOUND ( 'NONE', #75, .T. ) ;
#104 = CYLINDRICAL_SURFACE ( 'NONE', #27, 0.5250000000000000222 ) ;
#105 = CARTESIAN_POINT ( 'NONE',  ( 0.0000000000000000000, 18.62500000000000000, 0.0000000000000000000 ) ) ;
#106 = CARTESIAN_POINT ( 'NONE',  ( 0.0000000000000000000, -18.62500000000000000, 0.0000000000000000000 ) ) ;
#107 = LINE ( 'NONE', #32, #77 ) ;
#108 = CIRCLE ( 'NONE', #79, 0.5250000000000000222 ) ;
#109 = DIRECTION ( 'NONE',  ( 0.0000000000000000000, 1.000000000000000000, 0.0000000000000000000 ) ) ;
#110 = DIRECTION ( 'NONE',  ( 0.0000000000000000000, 0.0000000000000000000, 1.000000000000000000 ) ) ;
#111 = DIRECTION ( 'NONE',  ( 0.0000000000000000000, 1.000000000000000000, 0.0000000000000000000 ) ) ;
#112 = DIRECTION ( 'NONE',  ( -0.0000000000000000000, -1.000000000000000000, -0.0000000000000000000 ) ) ;
#113 = DIRECTION ( 'NONE',  ( 0.0000000000000000000, 0.0000000000000000000, -1.000000000000000000 ) ) ;
#114 = DIRECTION ( 'NONE',  ( 0.0000000000000000000, 1.000000000000000000, 0.0000000000000000000 ) ) ;
#115 = LENGTH_MEASURE_WITH_UNIT ( LENGTH_MEASURE( 0.02539999999999999897 ), #119 );
#116 =( CONVERSION_BASED_UNIT ( 'INCH', #115 ) LENGTH_UNIT ( ) NAMED_UNIT ( #126 ) );
#117 = EDGE_CURVE ( 'NONE', #5, #34, #108, .T. ) ;
#118 = CYLINDRICAL_SURFACE ( 'NONE', #160, 0.4249999999999999889 ) ;
#119 =( LENGTH_UNIT ( ) NAMED_UNIT ( * ) SI_UNIT ( $, .METRE. ) );
#120 = PRODUCT ( 'am-4278 Frame - Vertical', 'am-4278 Frame - Vertical', '', ( #149 ) ) ;
#121 =( NAMED_UNIT ( * ) PLANE_ANGLE_UNIT ( ) SI_UNIT ( $, .RADIAN. ) );
#122 =( NAMED_UNIT ( * ) SI_UNIT ( $, .STERADIAN. ) SOLID_ANGLE_UNIT ( ) );
#123 = EDGE_CURVE ( 'NONE', #34, #68, #138, .T. ) ;
#124 = DIRECTION ( 'NONE',  ( 0.0000000000000000000, 0.0000000000000000000, 1.000000000000000000 ) ) ;
#125 = APPLICATION_PROTOCOL_DEFINITION ( 'draft international standard', 'automotive_design', 1998, #19 ) ;
#126 = DIMENSIONAL_EXPONENTS ( 1.000000000000000000, 0.0000000000000000000, 0.0000000000000000000, 0.0000000000000000000, 0.0000000000000000000, 0.0000000000000000000, 0.0000000000000000000 ) ;
#127 = FILL_AREA_STYLE ('',( #129 ) ) ;
#128 = SURFACE_STYLE_FILL_AREA ( #127 ) ;
#129 = FILL_AREA_STYLE_COLOUR ( '', #14 ) ;
#130 = LENGTH_MEASURE_WITH_UNIT ( LENGTH_MEASURE( 0.02539999999999999897 ), #131 );
#131 =( LENGTH_UNIT ( ) NAMED_UNIT ( * ) SI_UNIT ( $, .METRE. ) );
#132 = DIRECTION ( 'NONE',  ( 0.0000000000000000000, 0.0000000000000000000, 1.000000000000000000 ) ) ;
#133 = SURFACE_SIDE_STYLE ('',( #128 ) ) ;
#134 =( NAMED_UNIT ( * ) SI_UNIT ( $, .STERADIAN. ) SOLID_ANGLE_UNIT ( ) );
#135 = MECHANICAL_DESIGN_GEOMETRIC_PRESENTATION_REPRESENTATION (  '', ( #10 ), #175 ) ;
#136 = SURFACE_STYLE_USAGE ( .BOTH. , #133 ) ;
#137 = PRESENTATION_STYLE_ASSIGNMENT (( #136 ) ) ;
#138 = LINE ( 'NONE', #208, #157 ) ;
#139 = APPLICATION_CONTEXT ( 'automotive_design' ) ;
#140 = CARTESIAN_POINT ( 'NONE',  ( 0.0000000000000000000, -18.62500000000000000, 0.0000000000000000000 ) ) ;
#141 = AXIS2_PLACEMENT_3D ( 'NONE', #159, #150, #179 ) ;
#142 =( CONVERSION_BASED_UNIT ( 'INCH', #130 ) LENGTH_UNIT ( ) NAMED_UNIT ( #2 ) );
#143 =( NAMED_UNIT ( * ) PLANE_ANGLE_UNIT ( ) SI_UNIT ( $, .RADIAN. ) );
#144 = EDGE_LOOP ( 'NONE', ( #46, #47 ) ) ;
#145 =( NAMED_UNIT ( * ) SI_UNIT ( $, .STERADIAN. ) SOLID_ANGLE_UNIT ( ) );
#146 = CARTESIAN_POINT ( 'NONE',  ( 0.0000000000000000000, 0.0000000000000000000, 0.0000000000000000000 ) ) ;
#147 = DIRECTION ( 'NONE',  ( 0.0000000000000000000, 0.0000000000000000000, 1.000000000000000000 ) ) ;
#148 = DIRECTION ( 'NONE',  ( 1.000000000000000000, 0.0000000000000000000, 0.0000000000000000000 ) ) ;
#149 = PRODUCT_CONTEXT ( 'NONE', #19, 'mechanical' ) ;
#150 = DIRECTION ( 'NONE',  ( 0.0000000000000000000, 1.000000000000000000, 0.0000000000000000000 ) ) ;
#151 = DIRECTION ( 'NONE',  ( 0.0000000000000000000, -0.0000000000000000000, 1.000000000000000000 ) ) ;
#152 = DIRECTION ( 'NONE',  ( -0.0000000000000000000, -1.000000000000000000, -0.0000000000000000000 ) ) ;
#153 = APPLICATION_PROTOCOL_DEFINITION ( 'draft international standard', 'automotive_design', 1998, #139 ) ;
#154 = SHAPE_DEFINITION_REPRESENTATION ( #216, #9 ) ;
#155 =( GEOMETRIC_REPRESENTATION_CONTEXT ( 3 ) GLOBAL_UNCERTAINTY_ASSIGNED_CONTEXT ( ( #209 ) ) GLOBAL_UNIT_ASSIGNED_CONTEXT ( ( #142, #143, #145 ) ) REPRESENTATION_CONTEXT ( 'NONE', 'WORKASPACE' ) );
#156 = EDGE_LOOP ( 'NONE', ( #74, #93, #86, #181 ) ) ;
#157 = VECTOR ( 'NONE', #195, 39.37007874015748143 ) ;
#158 = ADVANCED_FACE ( 'NONE', ( #207, #183 ), #189, .F. ) ;
#159 = CARTESIAN_POINT ( 'NONE',  ( 0.0000000000000000000, -18.62500000000000000, 0.0000000000000000000 ) ) ;
#160 = AXIS2_PLACEMENT_3D ( 'NONE', #92, #95, #96 ) ;
#161 = MECHANICAL_DESIGN_GEOMETRIC_PRESENTATION_REPRESENTATION (  '', ( #202 ), #155 ) ;
#162 = AXIS2_PLACEMENT_3D ( 'NONE', #65, #165, #90 ) ;
#163 = MANIFOLD_SOLID_BREP ( 'Boss-Extrude1', #1 ) ;
#164 = AXIS2_PLACEMENT_3D ( 'NONE', #140, #109, #110 ) ;
#165 = DIRECTION ( 'NONE',  ( 0.0000000000000000000, 1.000000000000000000, 0.0000000000000000000 ) ) ;
#166 = EDGE_CURVE ( 'NONE', #57, #68, #29, .T. ) ;
#167 = EDGE_LOOP ( 'NONE', ( #38, #37, #36, #39 ) ) ;
#168 = FILL_AREA_STYLE ('',( #187 ) ) ;
#169 = VERTEX_POINT ( 'NONE', #78 ) ;
#170 = PLANE ( 'NONE',  #172 ) ;
#171 = CIRCLE ( 'NONE', #102, 0.4249999999999999889 ) ;
#172 = AXIS2_PLACEMENT_3D ( 'NONE', #18, #67, #151 ) ;
#173 = COLOUR_RGB ( '',0.2980392156862745057, 0.2980392156862745057, 0.2980392156862745057 ) ;
#174 =( NAMED_UNIT ( * ) PLANE_ANGLE_UNIT ( ) SI_UNIT ( $, .RADIAN. ) );
#175 =( GEOMETRIC_REPRESENTATION_CONTEXT ( 3 ) GLOBAL_UNCERTAINTY_ASSIGNED_CONTEXT ( ( #200 ) ) GLOBAL_UNIT_ASSIGNED_CONTEXT ( ( #73, #174, #134 ) ) REPRESENTATION_CONTEXT ( 'NONE', 'WORKASPACE' ) );
#176 = PRODUCT_DEFINITION_FORMATION_WITH_SPECIFIED_SOURCE ( 'ANY', '', #120, .NOT_KNOWN. ) ;
#177 = DIRECTION ( 'NONE',  ( 0.0000000000000000000, 0.0000000000000000000, 1.000000000000000000 ) ) ;
#178 = VECTOR ( 'NONE', #56, 39.37007874015748143 ) ;
#179 = DIRECTION ( 'NONE',  ( 0.0000000000000000000, -0.0000000000000000000, 1.000000000000000000 ) ) ;
#180 =( GEOMETRIC_REPRESENTATION_CONTEXT ( 3 ) GLOBAL_UNCERTAINTY_ASSIGNED_CONTEXT ( ( #25 ) ) GLOBAL_UNIT_ASSIGNED_CONTEXT ( ( #116, #121, #122 ) ) REPRESENTATION_CONTEXT ( 'NONE', 'WORKASPACE' ) );
#181 = ORIENTED_EDGE ( 'NONE', *, *, #212, .F. ) ;
#182 = ORIENTED_EDGE ( 'NONE', *, *, #166, .T. ) ;
#183 = FACE_BOUND ( 'NONE', #64, .T. ) ;
#184 = VERTEX_POINT ( 'NONE', #82 ) ;
#185 = PRODUCT_DEFINITION_CONTEXT ( 'detailed design', #139, 'design' ) ;
#186 = DIMENSIONAL_EXPONENTS ( 1.000000000000000000, 0.0000000000000000000, 0.0000000000000000000, 0.0000000000000000000, 0.0000000000000000000, 0.0000000000000000000, 0.0000000000000000000 ) ;
#187 = FILL_AREA_STYLE_COLOUR ( '', #173 ) ;
#188 = CIRCLE ( 'NONE', #28, 0.5250000000000000222 ) ;
#189 = PLANE ( 'NONE',  #141 ) ;
#190 = SURFACE_STYLE_FILL_AREA ( #168 ) ;
#191 = VERTEX_POINT ( 'NONE', #83 ) ;
#192 = LINE ( 'NONE', #85, #221 ) ;
#193 = DIRECTION ( 'NONE',  ( 0.0000000000000000000, 0.0000000000000000000, 1.000000000000000000 ) ) ;
#194 = CIRCLE ( 'NONE', #162, 0.4249999999999999889 ) ;
#195 = DIRECTION ( 'NONE',  ( -0.0000000000000000000, -1.000000000000000000, -0.0000000000000000000 ) ) ;
#196 = SURFACE_STYLE_USAGE ( .BOTH. , #199 ) ;
#197 = PRESENTATION_STYLE_ASSIGNMENT (( #196 ) ) ;
#198 = CIRCLE ( 'NONE', #8, 0.4249999999999999889 ) ;
#199 = SURFACE_SIDE_STYLE ('',( #190 ) ) ;
#200 = UNCERTAINTY_MEASURE_WITH_UNIT (LENGTH_MEASURE( 1.000000000000000082E-05 ), #73, 'distance_accuracy_value', 'NONE');
#201 = CARTESIAN_POINT ( 'NONE',  ( 6.429395695523603660E-17, 18.62500000000000000, 0.5250000000000000222 ) ) ;
#202 = STYLED_ITEM ( 'NONE', ( #137 ), #9 ) ;
#203 = AXIS2_PLACEMENT_3D ( 'NONE', #58, #152, #100 ) ;
#204 = CARTESIAN_POINT ( 'NONE',  ( 0.0000000000000000000, 18.62500000000000000, 0.0000000000000000000 ) ) ;
#205 = CYLINDRICAL_SURFACE ( 'NONE', #203, 0.5250000000000000222 ) ;
#206 = ADVANCED_FACE ( 'NONE', ( #84 ), #118, .F. ) ;
#207 = FACE_OUTER_BOUND ( 'NONE', #35, .T. ) ;
#208 = CARTESIAN_POINT ( 'NONE',  ( 6.429395695523603660E-17, 18.62500000000000000, 0.5250000000000000222 ) ) ;
#209 = UNCERTAINTY_MEASURE_WITH_UNIT (LENGTH_MEASURE( 1.000000000000000082E-05 ), #142, 'distance_accuracy_value', 'NONE');
#210 = FACE_OUTER_BOUND ( 'NONE', #63, .T. ) ;
#211 = CIRCLE ( 'NONE', #88, 0.5250000000000000222 ) ;
#212 = EDGE_CURVE ( 'NONE', #184, #33, #198, .T. ) ;
#213 = DIRECTION ( 'NONE',  ( 0.0000000000000000000, 1.000000000000000000, 0.0000000000000000000 ) ) ;
#214 = DIRECTION ( 'NONE',  ( -0.0000000000000000000, -1.000000000000000000, -0.0000000000000000000 ) ) ;
#215 = ADVANCED_FACE ( 'NONE', ( #103 ), #104, .T. ) ;
#216 = PRODUCT_DEFINITION_SHAPE ( 'NONE', 'NONE',  #6 ) ;
#217 = FACE_BOUND ( 'NONE', #144, .T. ) ;
#218 = CARTESIAN_POINT ( 'NONE',  ( 0.0000000000000000000, 18.62500000000000000, -0.5250000000000000222 ) ) ;
#219 = ORIENTED_EDGE ( 'NONE', *, *, #123, .F. ) ;
#220 = CIRCLE ( 'NONE', #17, 0.4249999999999999889 ) ;
#221 = VECTOR ( 'NONE', #26, 39.37007874015748143 ) ;
#222 = EDGE_CURVE ( 'NONE', #68, #57, #211, .T. ) ;
#223 = PRESENTATION_LAYER_ASSIGNMENT (  '', '', ( #10 ) ) ;
ENDSEC;
END-ISO-10303-21;
